ISO-10303-21;
HEADER;
FILE_DESCRIPTION (( 'STEP AP203' ),
    '1' );
FILE_NAME ('QM-AAQWP-15-650-1100-M.STEP',
    '2021-01-05T02:42:40',
    ( '' ),
    ( '' ),
    'SwSTEP 2.0',
    'SolidWorks 2020',
    '' );
FILE_SCHEMA (( 'CONFIG_CONTROL_DESIGN' ));
ENDSEC;

DATA;
#1 = CARTESIAN_POINT ( 'NONE',  ( -3.000000000000000000, 0.000000000000000000, 0.000000000000000000 ) ) ;
#2 = CARTESIAN_POINT ( 'NONE',  ( 0.000000000000000000, 0.000000000000000000, 0.000000000000000000 ) ) ;
#3 = EDGE_CURVE ( 'NONE', #110, #291, #306, .T. ) ;
#4 = APPROVAL_ROLE ( '' ) ;
#5 = AXIS2_PLACEMENT_3D ( 'NONE', #192, #221, #91 ) ;
#6 = ORIENTED_EDGE ( 'NONE', *, *, #256, .F. ) ;
#7 = PLANE ( 'NONE',  #327 ) ;
#8 = CC_DESIGN_PERSON_AND_ORGANIZATION_ASSIGNMENT ( #17, #41, ( #89 ) ) ;
#9 = EDGE_CURVE ( 'NONE', #126, #283, #237, .T. ) ;
#10 = DIRECTION ( 'NONE',  ( -1.000000000000000000, -0.000000000000000000, -0.000000000000000000 ) ) ;
#11 = ORIENTED_EDGE ( 'NONE', *, *, #286, .T. ) ;
#12 = CIRCLE ( 'NONE', #189, 12.69999999999999929 ) ;
#13 = DIRECTION ( 'NONE',  ( -1.000000000000000000, -0.000000000000000000, -0.000000000000000000 ) ) ;
#14 = APPROVAL_ROLE ( '' ) ;
#15 = ORIENTED_EDGE ( 'NONE', *, *, #286, .F. ) ;
#16 = PLANE ( 'NONE',  #125 ) ;
#17 = PERSON_AND_ORGANIZATION ( #96, #51 ) ;
#18 = DIRECTION ( 'NONE',  ( 0.000000000000000000, 0.000000000000000000, 1.000000000000000000 ) ) ;
#19 = EDGE_LOOP ( 'NONE', ( #129, #274 ) ) ;
#20 = DIRECTION ( 'NONE',  ( 0.000000000000000000, 0.000000000000000000, 1.000000000000000000 ) ) ;
#21 = CC_DESIGN_DATE_AND_TIME_ASSIGNMENT ( #121, #294, ( #89 ) ) ;
#22 = CARTESIAN_POINT ( 'NONE',  ( -3.000000000000000000, 1.555301434917138433E-15, -12.69999999999999929 ) ) ;
#23 = DIRECTION ( 'NONE',  ( -1.000000000000000000, -0.000000000000000000, -0.000000000000000000 ) ) ;
#24 = DIRECTION ( 'NONE',  ( 0.000000000000000000, 0.000000000000000000, 1.000000000000000000 ) ) ;
#25 = PERSON_AND_ORGANIZATION ( #96, #51 ) ;
#26 = EDGE_CURVE ( 'NONE', #127, #258, #187, .T. ) ;
#27 = EDGE_LOOP ( 'NONE', ( #49, #234, #54, #99 ) ) ;
#28 = AXIS2_PLACEMENT_3D ( 'NONE', #1, #23, #24 ) ;
#29 = AXIS2_PLACEMENT_3D ( 'NONE', #157, #55, #269 ) ;
#30 = DIRECTION ( 'NONE',  ( 0.000000000000000000, 0.000000000000000000, 1.000000000000000000 ) ) ;
#31 = MECHANICAL_CONTEXT ( 'NONE', #168, 'mechanical' ) ;
#32 = DIRECTION ( 'NONE',  ( 0.000000000000000000, 0.000000000000000000, 1.000000000000000000 ) ) ;
#33 = EDGE_CURVE ( 'NONE', #291, #110, #117, .T. ) ;
#34 = DIRECTION ( 'NONE',  ( -1.000000000000000000, -0.000000000000000000, -0.000000000000000000 ) ) ;
#35 = AXIS2_PLACEMENT_3D ( 'NONE', #247, #195, #30 ) ;
#36 = CALENDAR_DATE ( 2021, 5, 1 ) ;
#37 = CALENDAR_DATE ( 2021, 5, 1 ) ;
#38 = AXIS2_PLACEMENT_3D ( 'NONE', #332, #76, #20 ) ;
#39 = LOCAL_TIME ( 10, 42, 40.00000000000000000, #273 ) ;
#40 = CARTESIAN_POINT ( 'NONE',  ( -3.000000000000000000, 0.000000000000000000, 0.000000000000000000 ) ) ;
#41 = PERSON_AND_ORGANIZATION_ROLE ( 'creator' ) ;
#42 = CARTESIAN_POINT ( 'NONE',  ( -1.614212418857619014, 0.000000000000000000, 0.000000000000000000 ) ) ;
#43 = DATE_AND_TIME ( #271, #317 ) ;
#44 = DIRECTION ( 'NONE',  ( -1.000000000000000000, -0.000000000000000000, -0.000000000000000000 ) ) ;
#45 = VECTOR ( 'NONE', #137, 1000.000000000000000 ) ;
#46 = CARTESIAN_POINT ( 'NONE',  ( 0.5000000000000008882, 0.000000000000000000, 7.500000000000000000 ) ) ;
#47 = ORIENTED_EDGE ( 'NONE', *, *, #26, .T. ) ;
#48 = CARTESIAN_POINT ( 'NONE',  ( 0.5000000000000004441, 7.500000000000000000, 0.000000000000000000 ) ) ;
#49 = ORIENTED_EDGE ( 'NONE', *, *, #9, .F. ) ;
#50 = DIRECTION ( 'NONE',  ( -1.000000000000000000, -0.000000000000000000, -0.000000000000000000 ) ) ;
#51 = ORGANIZATION ( 'UNSPECIFIED', 'UNSPECIFIED', '' ) ;
#52 = CARTESIAN_POINT ( 'NONE',  ( -1.614212418857619014, 0.000000000000000000, 7.499999999999998224 ) ) ;
#53 = APPLICATION_PROTOCOL_DEFINITION ( 'international standard', 'config_control_design', 1994, #207 ) ;
#54 = ORIENTED_EDGE ( 'NONE', *, *, #162, .T. ) ;
#55 = DIRECTION ( 'NONE',  ( -1.000000000000000000, -0.000000000000000000, -0.000000000000000000 ) ) ;
#56 = DIRECTION ( 'NONE',  ( -1.000000000000000000, -0.000000000000000000, -0.000000000000000000 ) ) ;
#57 =( LENGTH_UNIT ( ) NAMED_UNIT ( * ) SI_UNIT ( .MILLI., .METRE. ) );
#58 = CYLINDRICAL_SURFACE ( 'NONE', #35, 7.499999999999998224 ) ;
#59 = FACE_OUTER_BOUND ( 'NONE', #176, .T. ) ;
#60 = DIRECTION ( 'NONE',  ( 0.000000000000000000, 0.000000000000000000, 1.000000000000000000 ) ) ;
#61 = CIRCLE ( 'NONE', #113, 7.499999999999997335 ) ;
#62 = VECTOR ( 'NONE', #145, 1000.000000000000000 ) ;
#63 = AXIS2_PLACEMENT_3D ( 'NONE', #148, #150, #259 ) ;
#64 = SECURITY_CLASSIFICATION_LEVEL ( 'unclassified' ) ;
#65 = ADVANCED_FACE ( 'NONE', ( #223 ), #58, .F. ) ;
#66 = COORDINATED_UNIVERSAL_TIME_OFFSET ( 8, 0, .AHEAD. ) ;
#67 = ADVANCED_FACE ( 'NONE', ( #116, #200 ), #7, .F. ) ;
#68 = ORIENTED_EDGE ( 'NONE', *, *, #293, .F. ) ;
#69 = DIRECTION ( 'NONE',  ( 0.000000000000000000, 0.000000000000000000, 1.000000000000000000 ) ) ;
#70 = PERSON_AND_ORGANIZATION ( #96, #51 ) ;
#71 = ADVANCED_FACE ( 'NONE', ( #226, #249 ), #120, .F. ) ;
#72 = APPROVAL_PERSON_ORGANIZATION ( #25, #165, #4 ) ;
#73 = CARTESIAN_POINT ( 'NONE',  ( -1.614212418857619014, 9.184850993605145972E-16, -7.499999999999998224 ) ) ;
#74 = COORDINATED_UNIVERSAL_TIME_OFFSET ( 8, 0, .AHEAD. ) ;
#75 = ORIENTED_EDGE ( 'NONE', *, *, #142, .T. ) ;
#76 = DIRECTION ( 'NONE',  ( -1.000000000000000000, -0.000000000000000000, -0.000000000000000000 ) ) ;
#77 = VERTEX_POINT ( 'NONE', #316 ) ;
#78 = CYLINDRICAL_SURFACE ( 'NONE', #167, 7.499999999999998224 ) ;
#79 = EDGE_CURVE ( 'NONE', #77, #258, #313, .T. ) ;
#80 =( GEOMETRIC_REPRESENTATION_CONTEXT ( 3 ) GLOBAL_UNCERTAINTY_ASSIGNED_CONTEXT ( ( #158 ) ) GLOBAL_UNIT_ASSIGNED_CONTEXT ( ( #57, #262, #134 ) ) REPRESENTATION_CONTEXT ( 'NONE', 'WORKASPACE' ) );
#81 = CARTESIAN_POINT ( 'NONE',  ( 3.000000000000000000, 0.000000000000000000, 12.69999999999999929 ) ) ;
#82 = ORIENTED_EDGE ( 'NONE', *, *, #290, .F. ) ;
#83 = DIRECTION ( 'NONE',  ( 1.000000000000000000, 0.000000000000000000, 0.000000000000000000 ) ) ;
#84 = DIRECTION ( 'NONE',  ( -1.000000000000000000, -0.000000000000000000, -0.000000000000000000 ) ) ;
#85 = PERSON_AND_ORGANIZATION ( #96, #51 ) ;
#86 = CC_DESIGN_APPROVAL ( #183, ( #241 ) ) ;
#87 = VERTEX_POINT ( 'NONE', #161 ) ;
#88 = EDGE_LOOP ( 'NONE', ( #322, #15 ) ) ;
#89 = PRODUCT_DEFINITION ( 'UNKNOWN', '', #230, #328 ) ;
#90 = DIRECTION ( 'NONE',  ( 0.000000000000000000, 0.000000000000000000, -1.000000000000000000 ) ) ;
#91 = DIRECTION ( 'NONE',  ( 0.000000000000000000, 0.000000000000000000, -1.000000000000000000 ) ) ;
#92 = CARTESIAN_POINT ( 'NONE',  ( 3.000000000000000000, 1.555301434917138433E-15, -12.69999999999999929 ) ) ;
#93 = EDGE_CURVE ( 'NONE', #184, #283, #216, .T. ) ;
#94 = CC_DESIGN_PERSON_AND_ORGANIZATION_ASSIGNMENT ( #170, #141, ( #241 ) ) ;
#95 = CIRCLE ( 'NONE', #320, 7.499999999999998224 ) ;
#96 = PERSON ( 'UNSPECIFIED', 'UNSPECIFIED', 'UNSPECIFIED', ('UNSPECIFIED'), ('UNSPECIFIED'), ('UNSPECIFIED') ) ;
#97 = CARTESIAN_POINT ( 'NONE',  ( 0.5000000000000008882, 0.000000000000000000, 0.000000000000000000 ) ) ;
#98 = COORDINATED_UNIVERSAL_TIME_OFFSET ( 8, 0, .AHEAD. ) ;
#99 = ORIENTED_EDGE ( 'NONE', *, *, #248, .F. ) ;
#100 = DIRECTION ( 'NONE',  ( 0.000000000000000000, 0.000000000000000000, 1.000000000000000000 ) ) ;
#101 = APPROVAL_STATUS ( 'not_yet_approved' ) ;
#102 = DIRECTION ( 'NONE',  ( 1.000000000000000000, 0.000000000000000000, 0.000000000000000000 ) ) ;
#103 = SHAPE_DEFINITION_REPRESENTATION ( #153, #169 ) ;
#104 = EDGE_CURVE ( 'NONE', #87, #291, #220, .T. ) ;
#105 = CARTESIAN_POINT ( 'NONE',  ( 3.000000000000000000, 0.000000000000000000, 0.000000000000000000 ) ) ;
#106 = ORIENTED_EDGE ( 'NONE', *, *, #3, .F. ) ;
#107 = CIRCLE ( 'NONE', #240, 12.69999999999999929 ) ;
#108 = CARTESIAN_POINT ( 'NONE',  ( 3.000000000000000000, 9.184850993605144000E-16, -7.499999999999997335 ) ) ;
#109 = FACE_OUTER_BOUND ( 'NONE', #112, .T. ) ;
#110 = VERTEX_POINT ( 'NONE', #122 ) ;
#111 = CYLINDRICAL_SURFACE ( 'NONE', #29, 12.69999999999999929 ) ;
#112 = EDGE_LOOP ( 'NONE', ( #329, #261, #206, #289 ) ) ;
#113 = AXIS2_PLACEMENT_3D ( 'NONE', #268, #13, #32 ) ;
#114 = CC_DESIGN_SECURITY_CLASSIFICATION ( #241, ( #230 ) ) ;
#115 = ADVANCED_FACE ( 'NONE', ( #202 ), #252, .T. ) ;
#116 = FACE_OUTER_BOUND ( 'NONE', #210, .T. ) ;
#117 = CIRCLE ( 'NONE', #188, 7.500000000000000000 ) ;
#118 = EDGE_CURVE ( 'NONE', #236, #127, #61, .T. ) ;
#119 = APPROVAL_PERSON_ORGANIZATION ( #70, #183, #278 ) ;
#120 = PLANE ( 'NONE',  #228 ) ;
#121 = DATE_AND_TIME ( #36, #222 ) ;
#122 = CARTESIAN_POINT ( 'NONE',  ( -3.000000000000000000, 9.184850993605147944E-16, -7.500000000000000000 ) ) ;
#123 = CARTESIAN_POINT ( 'NONE',  ( -3.000000000000000000, 0.000000000000000000, 7.500000000000000000 ) ) ;
#124 = DATE_AND_TIME ( #175, #197 ) ;
#125 = AXIS2_PLACEMENT_3D ( 'NONE', #48, #235, #299 ) ;
#126 = VERTEX_POINT ( 'NONE', #92 ) ;
#127 = VERTEX_POINT ( 'NONE', #224 ) ;
#128 = ORIENTED_EDGE ( 'NONE', *, *, #104, .T. ) ;
#129 = ORIENTED_EDGE ( 'NONE', *, *, #142, .F. ) ;
#130 = DIRECTION ( 'NONE',  ( -1.000000000000000000, -0.000000000000000000, -0.000000000000000000 ) ) ;
#131 = ORIENTED_EDGE ( 'NONE', *, *, #118, .F. ) ;
#132 = ORIENTED_EDGE ( 'NONE', *, *, #118, .T. ) ;
#133 = CLOSED_SHELL ( 'NONE', ( #326, #214, #65, #275, #193, #177, #71, #115, #67, #194 ) ) ;
#134 =( NAMED_UNIT ( * ) SI_UNIT ( $, .STERADIAN. ) SOLID_ANGLE_UNIT ( ) );
#135 = VECTOR ( 'NONE', #244, 1000.000000000000000 ) ;
#136 = CARTESIAN_POINT ( 'NONE',  ( -0.5000000000000004441, 9.184850993605145972E-16, -7.499999999999998224 ) ) ;
#137 = DIRECTION ( 'NONE',  ( -1.000000000000000000, -0.000000000000000000, -0.000000000000000000 ) ) ;
#138 = VECTOR ( 'NONE', #215, 1000.000000000000000 ) ;
#139 = AXIS2_PLACEMENT_3D ( 'NONE', #227, #102, #307 ) ;
#140 = CC_DESIGN_PERSON_AND_ORGANIZATION_ASSIGNMENT ( #324, #301, ( #230 ) ) ;
#141 = PERSON_AND_ORGANIZATION_ROLE ( 'classification_officer' ) ;
#142 = EDGE_CURVE ( 'NONE', #258, #77, #308, .T. ) ;
#143 = CARTESIAN_POINT ( 'NONE',  ( -1.614212418857619014, 0.000000000000000000, 7.499999999999998224 ) ) ;
#144 = PERSON_AND_ORGANIZATION ( #96, #51 ) ;
#145 = DIRECTION ( 'NONE',  ( -1.000000000000000000, -0.000000000000000000, -0.000000000000000000 ) ) ;
#146 = FACE_OUTER_BOUND ( 'NONE', #19, .T. ) ;
#147 = FACE_OUTER_BOUND ( 'NONE', #88, .T. ) ;
#148 = CARTESIAN_POINT ( 'NONE',  ( 3.000000000000000000, 0.000000000000000000, 0.000000000000000000 ) ) ;
#149 = EDGE_LOOP ( 'NONE', ( #219, #106 ) ) ;
#150 = DIRECTION ( 'NONE',  ( -1.000000000000000000, -0.000000000000000000, -0.000000000000000000 ) ) ;
#151 = ORIENTED_EDGE ( 'NONE', *, *, #162, .F. ) ;
#152 = ORIENTED_EDGE ( 'NONE', *, *, #233, .F. ) ;
#153 = PRODUCT_DEFINITION_SHAPE ( 'NONE', 'NONE',  #89 ) ;
#154 = LOCAL_TIME ( 10, 42, 40.00000000000000000, #218 ) ;
#155 = CARTESIAN_POINT ( 'NONE',  ( -1.614212418857619014, 9.184850993605145972E-16, -7.499999999999998224 ) ) ;
#156 = EDGE_LOOP ( 'NONE', ( #131, #191, #263, #302 ) ) ;
#157 = CARTESIAN_POINT ( 'NONE',  ( -1.614212418857619014, 0.000000000000000000, 0.000000000000000000 ) ) ;
#158 = UNCERTAINTY_MEASURE_WITH_UNIT (LENGTH_MEASURE( 1.000000000000000082E-05 ), #57, 'distance_accuracy_value', 'NONE');
#159 = FACE_OUTER_BOUND ( 'NONE', #285, .T. ) ;
#160 = AXIS2_PLACEMENT_3D ( 'NONE', #297, #56, #276 ) ;
#161 = CARTESIAN_POINT ( 'NONE',  ( -0.5000000000000004441, 0.000000000000000000, 7.499999999999998224 ) ) ;
#162 = EDGE_CURVE ( 'NONE', #239, #184, #164, .T. ) ;
#163 = LINE ( 'NONE', #155, #135 ) ;
#164 = LINE ( 'NONE', #270, #45 ) ;
#165 = APPROVAL ( #238, 'UNSPECIFIED' ) ;
#166 = AXIS2_PLACEMENT_3D ( 'NONE', #40, #204, #69 ) ;
#167 = AXIS2_PLACEMENT_3D ( 'NONE', #42, #330, #334 ) ;
#168 = APPLICATION_CONTEXT ( 'configuration controlled 3d designs of mechanical parts and assemblies' ) ;
#169 = ADVANCED_BREP_SHAPE_REPRESENTATION ( 'QM-AAQWP-15-650-1100-M', ( #181, #180 ), #80 ) ;
#170 = PERSON_AND_ORGANIZATION ( #96, #51 ) ;
#171 = DIRECTION ( 'NONE',  ( -1.000000000000000000, 0.000000000000000000, -0.000000000000000000 ) ) ;
#172 = APPROVAL_STATUS ( 'not_yet_approved' ) ;
#173 = AXIS2_PLACEMENT_3D ( 'NONE', #279, #44, #304 ) ;
#174 = DIRECTION ( 'NONE',  ( -1.000000000000000000, -0.000000000000000000, -0.000000000000000000 ) ) ;
#175 = CALENDAR_DATE ( 2021, 5, 1 ) ;
#176 = EDGE_LOOP ( 'NONE', ( #212, #186, #190, #151 ) ) ;
#177 = ADVANCED_FACE ( 'NONE', ( #159 ), #257, .F. ) ;
#178 = DIRECTION ( 'NONE',  ( -1.000000000000000000, -0.000000000000000000, -0.000000000000000000 ) ) ;
#179 = VECTOR ( 'NONE', #174, 1000.000000000000000 ) ;
#180 = AXIS2_PLACEMENT_3D ( 'NONE', #2, #312, #264 ) ;
#181 = MANIFOLD_SOLID_BREP ( 'Ðý×', #133 ) ;
#182 = CARTESIAN_POINT ( 'NONE',  ( -3.000000000000000000, 0.000000000000000000, 12.69999999999999929 ) ) ;
#183 = APPROVAL ( #172, 'UNSPECIFIED' ) ;
#184 = VERTEX_POINT ( 'NONE', #182 ) ;
#185 = DIRECTION ( 'NONE',  ( 0.000000000000000000, 0.000000000000000000, -1.000000000000000000 ) ) ;
#186 = ORIENTED_EDGE ( 'NONE', *, *, #9, .T. ) ;
#187 = LINE ( 'NONE', #52, #138 ) ;
#188 = AXIS2_PLACEMENT_3D ( 'NONE', #314, #10, #292 ) ;
#189 = AXIS2_PLACEMENT_3D ( 'NONE', #232, #130, #281 ) ;
#190 = ORIENTED_EDGE ( 'NONE', *, *, #93, .F. ) ;
#191 = ORIENTED_EDGE ( 'NONE', *, *, #290, .T. ) ;
#192 = CARTESIAN_POINT ( 'NONE',  ( -0.5000000000000004441, 0.000000000000000000, 0.000000000000000000 ) ) ;
#193 = ADVANCED_FACE ( 'NONE', ( #205 ), #309, .F. ) ;
#194 = ADVANCED_FACE ( 'NONE', ( #147 ), #208, .F. ) ;
#195 = DIRECTION ( 'NONE',  ( -1.000000000000000000, -0.000000000000000000, -0.000000000000000000 ) ) ;
#196 = AXIS2_PLACEMENT_3D ( 'NONE', #105, #50, #282 ) ;
#197 = LOCAL_TIME ( 10, 42, 40.00000000000000000, #74 ) ;
#198 = CC_DESIGN_PERSON_AND_ORGANIZATION_ASSIGNMENT ( #225, #300, ( #230 ) ) ;
#199 = AXIS2_PLACEMENT_3D ( 'NONE', #97, #272, #60 ) ;
#200 = FACE_BOUND ( 'NONE', #265, .T. ) ;
#201 = DATE_TIME_ROLE ( 'classification_date' ) ;
#202 = FACE_OUTER_BOUND ( 'NONE', #27, .T. ) ;
#203 = DATE_AND_TIME ( #37, #39 ) ;
#204 = DIRECTION ( 'NONE',  ( -1.000000000000000000, -0.000000000000000000, -0.000000000000000000 ) ) ;
#205 = FACE_OUTER_BOUND ( 'NONE', #287, .T. ) ;
#206 = ORIENTED_EDGE ( 'NONE', *, *, #3, .T. ) ;
#207 = APPLICATION_CONTEXT ( 'configuration controlled 3d designs of mechanical parts and assemblies' ) ;
#208 = PLANE ( 'NONE',  #139 ) ;
#209 = CIRCLE ( 'NONE', #196, 7.499999999999997335 ) ;
#210 = EDGE_LOOP ( 'NONE', ( #213, #152 ) ) ;
#211 = CARTESIAN_POINT ( 'NONE',  ( -0.5000000000000004441, 0.000000000000000000, 0.000000000000000000 ) ) ;
#212 = ORIENTED_EDGE ( 'NONE', *, *, #280, .T. ) ;
#213 = ORIENTED_EDGE ( 'NONE', *, *, #280, .F. ) ;
#214 = ADVANCED_FACE ( 'NONE', ( #109 ), #78, .F. ) ;
#215 = DIRECTION ( 'NONE',  ( -1.000000000000000000, -0.000000000000000000, -0.000000000000000000 ) ) ;
#216 = CIRCLE ( 'NONE', #166, 12.69999999999999929 ) ;
#217 = CIRCLE ( 'NONE', #63, 12.69999999999999929 ) ;
#218 = COORDINATED_UNIVERSAL_TIME_OFFSET ( 8, 0, .AHEAD. ) ;
#219 = ORIENTED_EDGE ( 'NONE', *, *, #33, .F. ) ;
#220 = LINE ( 'NONE', #143, #62 ) ;
#221 = DIRECTION ( 'NONE',  ( 1.000000000000000000, 0.000000000000000000, 0.000000000000000000 ) ) ;
#222 = LOCAL_TIME ( 10, 42, 40.00000000000000000, #98 ) ;
#223 = FACE_OUTER_BOUND ( 'NONE', #156, .T. ) ;
#224 = CARTESIAN_POINT ( 'NONE',  ( 3.000000000000000000, 0.000000000000000000, 7.499999999999997335 ) ) ;
#225 = PERSON_AND_ORGANIZATION ( #96, #51 ) ;
#226 = FACE_BOUND ( 'NONE', #149, .T. ) ;
#227 = CARTESIAN_POINT ( 'NONE',  ( -0.5000000000000004441, 7.500000000000000000, 0.000000000000000000 ) ) ;
#228 = AXIS2_PLACEMENT_3D ( 'NONE', #242, #315, #90 ) ;
#229 = APPROVAL_DATE_TIME ( #250, #165 ) ;
#230 = PRODUCT_DEFINITION_FORMATION_WITH_SPECIFIED_SOURCE ( 'ANY', '', #331, .NOT_KNOWN. ) ;
#231 = ORIENTED_EDGE ( 'NONE', *, *, #93, .T. ) ;
#232 = CARTESIAN_POINT ( 'NONE',  ( -3.000000000000000000, 0.000000000000000000, 0.000000000000000000 ) ) ;
#233 = EDGE_CURVE ( 'NONE', #126, #239, #107, .T. ) ;
#234 = ORIENTED_EDGE ( 'NONE', *, *, #233, .T. ) ;
#235 = DIRECTION ( 'NONE',  ( -1.000000000000000000, 0.000000000000000000, -0.000000000000000000 ) ) ;
#236 = VERTEX_POINT ( 'NONE', #108 ) ;
#237 = LINE ( 'NONE', #311, #333 ) ;
#238 = APPROVAL_STATUS ( 'not_yet_approved' ) ;
#239 = VERTEX_POINT ( 'NONE', #81 ) ;
#240 = AXIS2_PLACEMENT_3D ( 'NONE', #255, #178, #18 ) ;
#241 = SECURITY_CLASSIFICATION ( '', '', #64 ) ;
#242 = CARTESIAN_POINT ( 'NONE',  ( -3.000000000000000000, 7.500000000000000000, 0.000000000000000000 ) ) ;
#243 = CC_DESIGN_DATE_AND_TIME_ASSIGNMENT ( #203, #201, ( #241 ) ) ;
#244 = DIRECTION ( 'NONE',  ( -1.000000000000000000, -0.000000000000000000, -0.000000000000000000 ) ) ;
#245 = CC_DESIGN_APPROVAL ( #296, ( #230 ) ) ;
#246 = APPROVAL_DATE_TIME ( #43, #183 ) ;
#247 = CARTESIAN_POINT ( 'NONE',  ( -1.614212418857619014, 0.000000000000000000, 0.000000000000000000 ) ) ;
#248 = EDGE_CURVE ( 'NONE', #283, #184, #12, .T. ) ;
#249 = FACE_OUTER_BOUND ( 'NONE', #305, .T. ) ;
#250 = DATE_AND_TIME ( #318, #154 ) ;
#251 = PRODUCT_RELATED_PRODUCT_CATEGORY ( 'detail', '', ( #331 ) ) ;
#252 = CYLINDRICAL_SURFACE ( 'NONE', #254, 12.69999999999999929 ) ;
#253 = ORIENTED_EDGE ( 'NONE', *, *, #33, .T. ) ;
#254 = AXIS2_PLACEMENT_3D ( 'NONE', #325, #34, #100 ) ;
#255 = CARTESIAN_POINT ( 'NONE',  ( 3.000000000000000000, 0.000000000000000000, 0.000000000000000000 ) ) ;
#256 = EDGE_CURVE ( 'NONE', #127, #236, #209, .T. ) ;
#257 = CYLINDRICAL_SURFACE ( 'NONE', #38, 7.499999999999998224 ) ;
#258 = VERTEX_POINT ( 'NONE', #46 ) ;
#259 = DIRECTION ( 'NONE',  ( 0.000000000000000000, 0.000000000000000000, 1.000000000000000000 ) ) ;
#260 = ORIENTED_EDGE ( 'NONE', *, *, #248, .T. ) ;
#261 = ORIENTED_EDGE ( 'NONE', *, *, #293, .T. ) ;
#262 =( NAMED_UNIT ( * ) PLANE_ANGLE_UNIT ( ) SI_UNIT ( $, .RADIAN. ) );
#263 = ORIENTED_EDGE ( 'NONE', *, *, #79, .T. ) ;
#264 = DIRECTION ( 'NONE',  ( 1.000000000000000000, 0.000000000000000000, 0.000000000000000000 ) ) ;
#265 = EDGE_LOOP ( 'NONE', ( #335, #132 ) ) ;
#266 = APPROVAL_PERSON_ORGANIZATION ( #144, #296, #14 ) ;
#267 = APPLICATION_PROTOCOL_DEFINITION ( 'international standard', 'config_control_design', 1994, #168 ) ;
#268 = CARTESIAN_POINT ( 'NONE',  ( 3.000000000000000000, 0.000000000000000000, 0.000000000000000000 ) ) ;
#269 = DIRECTION ( 'NONE',  ( 0.000000000000000000, 0.000000000000000000, 1.000000000000000000 ) ) ;
#270 = CARTESIAN_POINT ( 'NONE',  ( -1.614212418857619014, 0.000000000000000000, 12.69999999999999929 ) ) ;
#271 = CALENDAR_DATE ( 2021, 5, 1 ) ;
#272 = DIRECTION ( 'NONE',  ( -1.000000000000000000, -0.000000000000000000, -0.000000000000000000 ) ) ;
#273 = COORDINATED_UNIVERSAL_TIME_OFFSET ( 8, 0, .AHEAD. ) ;
#274 = ORIENTED_EDGE ( 'NONE', *, *, #79, .F. ) ;
#275 = ADVANCED_FACE ( 'NONE', ( #146 ), #16, .F. ) ;
#276 = DIRECTION ( 'NONE',  ( 0.000000000000000000, 0.000000000000000000, 1.000000000000000000 ) ) ;
#277 = CIRCLE ( 'NONE', #5, 7.499999999999998224 ) ;
#278 = APPROVAL_ROLE ( '' ) ;
#279 = CARTESIAN_POINT ( 'NONE',  ( -1.614212418857619014, 0.000000000000000000, 0.000000000000000000 ) ) ;
#280 = EDGE_CURVE ( 'NONE', #239, #126, #217, .T. ) ;
#281 = DIRECTION ( 'NONE',  ( 0.000000000000000000, 0.000000000000000000, 1.000000000000000000 ) ) ;
#282 = DIRECTION ( 'NONE',  ( 0.000000000000000000, 0.000000000000000000, 1.000000000000000000 ) ) ;
#283 = VERTEX_POINT ( 'NONE', #22 ) ;
#284 = LINE ( 'NONE', #73, #179 ) ;
#285 = EDGE_LOOP ( 'NONE', ( #68, #11, #128, #253 ) ) ;
#286 = EDGE_CURVE ( 'NONE', #298, #87, #95, .T. ) ;
#287 = EDGE_LOOP ( 'NONE', ( #82, #6, #47, #75 ) ) ;
#288 = PERSON_AND_ORGANIZATION_ROLE ( 'design_owner' ) ;
#289 = ORIENTED_EDGE ( 'NONE', *, *, #104, .F. ) ;
#290 = EDGE_CURVE ( 'NONE', #236, #77, #284, .T. ) ;
#291 = VERTEX_POINT ( 'NONE', #123 ) ;
#292 = DIRECTION ( 'NONE',  ( 0.000000000000000000, 0.000000000000000000, 1.000000000000000000 ) ) ;
#293 = EDGE_CURVE ( 'NONE', #298, #110, #163, .T. ) ;
#294 = DATE_TIME_ROLE ( 'creation_date' ) ;
#295 = CARTESIAN_POINT ( 'NONE',  ( 3.000000000000000000, 12.69999999999999929, 0.000000000000000000 ) ) ;
#296 = APPROVAL ( #101, 'UNSPECIFIED' ) ;
#297 = CARTESIAN_POINT ( 'NONE',  ( 0.5000000000000008882, 0.000000000000000000, 0.000000000000000000 ) ) ;
#298 = VERTEX_POINT ( 'NONE', #136 ) ;
#299 = DIRECTION ( 'NONE',  ( -0.000000000000000000, 0.000000000000000000, 1.000000000000000000 ) ) ;
#300 = PERSON_AND_ORGANIZATION_ROLE ( 'creator' ) ;
#301 = PERSON_AND_ORGANIZATION_ROLE ( 'design_supplier' ) ;
#302 = ORIENTED_EDGE ( 'NONE', *, *, #26, .F. ) ;
#303 = CC_DESIGN_PERSON_AND_ORGANIZATION_ASSIGNMENT ( #85, #288, ( #331 ) ) ;
#304 = DIRECTION ( 'NONE',  ( 0.000000000000000000, 0.000000000000000000, 1.000000000000000000 ) ) ;
#305 = EDGE_LOOP ( 'NONE', ( #231, #260 ) ) ;
#306 = CIRCLE ( 'NONE', #28, 7.500000000000000000 ) ;
#307 = DIRECTION ( 'NONE',  ( 0.000000000000000000, 0.000000000000000000, -1.000000000000000000 ) ) ;
#308 = CIRCLE ( 'NONE', #160, 7.500000000000000000 ) ;
#309 = CYLINDRICAL_SURFACE ( 'NONE', #173, 7.499999999999998224 ) ;
#310 = EDGE_CURVE ( 'NONE', #87, #298, #277, .T. ) ;
#311 = CARTESIAN_POINT ( 'NONE',  ( -1.614212418857619014, 1.555301434917138433E-15, -12.69999999999999929 ) ) ;
#312 = DIRECTION ( 'NONE',  ( 0.000000000000000000, 0.000000000000000000, 1.000000000000000000 ) ) ;
#313 = CIRCLE ( 'NONE', #199, 7.500000000000000000 ) ;
#314 = CARTESIAN_POINT ( 'NONE',  ( -3.000000000000000000, 0.000000000000000000, 0.000000000000000000 ) ) ;
#315 = DIRECTION ( 'NONE',  ( 1.000000000000000000, 0.000000000000000000, 0.000000000000000000 ) ) ;
#316 = CARTESIAN_POINT ( 'NONE',  ( 0.5000000000000008882, 9.184850993605147944E-16, -7.500000000000000000 ) ) ;
#317 = LOCAL_TIME ( 10, 42, 40.00000000000000000, #66 ) ;
#318 = CALENDAR_DATE ( 2021, 5, 1 ) ;
#319 = APPROVAL_DATE_TIME ( #124, #296 ) ;
#320 = AXIS2_PLACEMENT_3D ( 'NONE', #211, #83, #185 ) ;
#321 = CC_DESIGN_APPROVAL ( #165, ( #89 ) ) ;
#322 = ORIENTED_EDGE ( 'NONE', *, *, #310, .F. ) ;
#323 = DIRECTION ( 'NONE',  ( -0.000000000000000000, 0.000000000000000000, 1.000000000000000000 ) ) ;
#324 = PERSON_AND_ORGANIZATION ( #96, #51 ) ;
#325 = CARTESIAN_POINT ( 'NONE',  ( -1.614212418857619014, 0.000000000000000000, 0.000000000000000000 ) ) ;
#326 = ADVANCED_FACE ( 'NONE', ( #59 ), #111, .T. ) ;
#327 = AXIS2_PLACEMENT_3D ( 'NONE', #295, #171, #323 ) ;
#328 = DESIGN_CONTEXT ( 'detailed design', #207, 'design' ) ;
#329 = ORIENTED_EDGE ( 'NONE', *, *, #310, .T. ) ;
#330 = DIRECTION ( 'NONE',  ( -1.000000000000000000, -0.000000000000000000, -0.000000000000000000 ) ) ;
#331 = PRODUCT ( 'QM-AAQWP-15-650-1100-M', 'QM-AAQWP-15-650-1100-M', '', ( #31 ) ) ;
#332 = CARTESIAN_POINT ( 'NONE',  ( -1.614212418857619014, 0.000000000000000000, 0.000000000000000000 ) ) ;
#333 = VECTOR ( 'NONE', #84, 1000.000000000000000 ) ;
#334 = DIRECTION ( 'NONE',  ( 0.000000000000000000, 0.000000000000000000, 1.000000000000000000 ) ) ;
#335 = ORIENTED_EDGE ( 'NONE', *, *, #256, .T. ) ;
ENDSEC;
END-ISO-10303-21;
